Chordie logo

Please Dont Make Me Cry   Ub40



| Ultimate Guitar Tabs Archive - your #1 source for tabs!               |
| http://www.ultimate-guitar.com/                                       |
|                                                                       |
| Over 200,000 guitar, guitar pro and bass tabs! Also lessons, news,    |
| columns and guitar forums!                                            |


Artist: Ub40
Song: Please Dont Make Me Cry


    Title - Please Don't Make Me Cry
    Artist - UB40
    Album - Labour of Love
    Tabbed by - Mat Bean
    E-mail - mattydread2@yahoo.com


  G|---------------------------------------------|
  D|-------------------------7-7-7-7---7-7--7-7--|
  A|----7-7-7-7---7-7-7-7--5---------5-----------|
  E|--5---------5--------------------------------|

  G|----------------------------------------------|
  D|------9-9-9-9-----7-7-7-7---------------------|
  A|--7-7----------\5----------7-7-7-7-----7-7-7--|
  E|-------------------------5---------5-5--------|

  G|---------------------------------------------|
  D|-------------------------7-7-7-7---7-7--7-7--|
  A|----7-7-7-7---7-7-7-7--5---------5-----------|
  E|--5---------5--------------------------------|

  G|-----------------------------------------------|
  D|------9-9-9-9----7-7-7-7-----------------------|
  A|--7-7---------\5-----------7-7-7-7---7-7-/9\7--|
  E|-------------------------5---------5-----------|

   repeat thro out song

END

+--------------------------------------------------------------------------+
| This file is the author's own work and represents their interpretation   |
| of the song. You may only use this file for private study, scholarship,  |
| or research.                                                             |
+--------------------------------------------------------------------------+



Important: The song above is NOT stored on the Chordie server. The original song is hosted at www.ultimate-guitar.com. Chordie works as a search engine and provides on-the-fly formatting. Chordie does not index songs against artists/composers will. To remove this song please click here.

This song is displayed as text-only. Transposing and tuning is only available for chordpro-songs.

Login - add to songbook

Rating click stars to rate

Layout
Accuracy

SHARE PAGE  

You need to log in to post comments